Saturday, August 20, 2011

#20 Ramadhan | tab mudah lagu raya 'suasana hari raya'

Anuar Zain & Ellina - Suasana Hari Raya

Intro 2x

E-----------------9----9--------------------------------------------------------|
B-9-9-10-10-12-12---12---12-10-9-10-9----------9-10-10-9-10-9-10-12--|
G-9-9---------------------------------11-11-11-------------------------------|
D-------------------------------------------------------------------------------|
A-------------------------------------------------------------------------------|
E-------------------------------------------------------------------------------|

E-----------------9----9-------------------------------------------------------|
B-9-9-10-10-12-12---12---12-10-9-10-9------------------------------------|
G-9-9---------------------------------11-11-11-9-8-9-9---------------------|
D------------------------------------------------------------------------------|
A------------------------------------------------------------------------------|
E-------------------------------------------------------------------------------|


sekadar intro dhulu..da pandai intro proceed ke lirik-lirik seterusnya di ultimateGUITAR.com(tabs) @ ultimateGUITAR.com(chords)

selamat mencuba!!!

OK DA SELESAI BACE,NAK KOMEN BOLEH,NAK LIKE PON BOLEH

www.tips-fb.com

14 comments:

Saif Sulong said...

ak x reti maen gitar.

pic tu lawo. hehe

[k]o{q}i[n] said...

aku pun x reti. ajar aku...!!!

Umie Artoqiemie said...

buatlah video kau main guitar ...


dari peminat kau
umie..

hahahha.

nadia fatihah said...

gitar pon takde. haha :P

Wani said...

tak reti. haha

*followed.

little ain said...

oloh. gambo nok stail je op. hehehe :)

jaya jr said...

saif:haha,kan blajo doh aritu..sambung balik aa lepas nim..buleh

koqin:aih,aku blajo youtube je bro..boleh jadik punye

umie:haha,tengok laa macam mane..susah kot skang ni..hik3

nadia:owh..klo xde gitar boleh bace kord je laa..hehehe

wani:huhu..OK =)

ain:haha,saje..blajo2 ambik gambor sket..kui3

fadzlynniza said...

ord utk drum pulak ade ta ? heheh =)

jaya jr said...

eh,drum tak tau laa.sebab tak belajar maen drum..hik3..sori2

Chuu Muqhlis said...

untung la reti main gitar :(

Miszyuyu said...

jaya =)) pat aja yuyu maen gitar pattt

jaya jr said...

chuu:haha..amatur je ni..eksyen je lebih..kui3

miszyuyu:haha,camne ek..senang je..belajar dari youtube pon boleh.tp kene ade itar dulu laa

Cahaya Mata @ Nurul Are Inn said...

Ajar ar men gilar :)

sang pencerita said...

untung lah ade peminat nak suruh buat video .hehe